ISO-10303-21;
HEADER;
FILE_DESCRIPTION (( 'STEP AP203' ),
    '1' );
FILE_NAME ('Q-OZHWP-R2-10-1550-M.STEP',
    '2020-12-22T09:10:59',
    ( '' ),
    ( '' ),
    'SwSTEP 2.0',
    'SolidWorks 2020',
    '' );
FILE_SCHEMA (( 'CONFIG_CONTROL_DESIGN' ));
ENDSEC;

DATA;
#1 = AXIS2_PLACEMENT_3D ( 'NONE', #177, #284, #47 ) ;
#2 = PERSON_AND_ORGANIZATION ( #195, #312 ) ;
#3 = COORDINATED_UNIVERSAL_TIME_OFFSET ( 8, 0, .AHEAD. ) ;
#4 = CC_DESIGN_SECURITY_CLASSIFICATION ( #69, ( #53 ) ) ;
#5 = CALENDAR_DATE ( 2020, 22, 12 ) ;
#6 = PERSON_AND_ORGANIZATION ( #195, #312 ) ;
#7 = FACE_OUTER_BOUND ( 'NONE', #29, .T. ) ;
#8 = ORIENTED_EDGE ( 'NONE', *, *, #16, .F. ) ;
#9 =( GEOMETRIC_REPRESENTATION_CONTEXT ( 3 ) GLOBAL_UNCERTAINTY_ASSIGNED_CONTEXT ( ( #154 ) ) GLOBAL_UNIT_ASSIGNED_CONTEXT ( ( #181, #159, #27 ) ) REPRESENTATION_CONTEXT ( 'NONE', 'WORKASPACE' ) );
#10 = LINE ( 'NONE', #194, #266 ) ;
#11 = DIRECTION ( 'NONE',  ( 0.000000000000000000, 0.000000000000000000, 1.000000000000000000 ) ) ;
#12 = EDGE_LOOP ( 'NONE', ( #186, #301, #113, #307 ) ) ;
#13 = LINE ( 'NONE', #328, #74 ) ;
#14 = AXIS2_PLACEMENT_3D ( 'NONE', #321, #116, #141 ) ;
#15 = DIRECTION ( 'NONE',  ( -1.000000000000000000, -0.000000000000000000, -0.000000000000000000 ) ) ;
#16 = EDGE_CURVE ( 'NONE', #54, #166, #203, .T. ) ;
#17 = CARTESIAN_POINT ( 'NONE',  ( -3.000000000000000000, 0.000000000000000000, 5.000000000000000000 ) ) ;
#18 = CARTESIAN_POINT ( 'NONE',  ( -3.000000000000000000, 0.000000000000000000, 0.000000000000000000 ) ) ;
#19 = EDGE_CURVE ( 'NONE', #291, #97, #169, .T. ) ;
#20 = DIRECTION ( 'NONE',  ( -1.000000000000000000, -0.000000000000000000, -0.000000000000000000 ) ) ;
#21 = DIRECTION ( 'NONE',  ( 0.000000000000000000, 0.000000000000000000, 1.000000000000000000 ) ) ;
#22 = CIRCLE ( 'NONE', #82, 12.69999999999999929 ) ;
#23 = COORDINATED_UNIVERSAL_TIME_OFFSET ( 8, 0, .AHEAD. ) ;
#24 = PERSON_AND_ORGANIZATION ( #195, #312 ) ;
#25 = AXIS2_PLACEMENT_3D ( 'NONE', #18, #173, #313 ) ;
#26 = AXIS2_PLACEMENT_3D ( 'NONE', #277, #245, #11 ) ;
#27 =( NAMED_UNIT ( * ) SI_UNIT ( $, .STERADIAN. ) SOLID_ANGLE_UNIT ( ) );
#28 = CC_DESIGN_PERSON_AND_ORGANIZATION_ASSIGNMENT ( #2, #204, ( #128 ) ) ;
#29 = EDGE_LOOP ( 'NONE', ( #164, #144 ) ) ;
#30 = EDGE_LOOP ( 'NONE', ( #137, #142 ) ) ;
#31 = CARTESIAN_POINT ( 'NONE',  ( 1.250000000000000444, 6.123233995736766282E-16, -5.000000000000000000 ) ) ;
#32 = PRODUCT_RELATED_PRODUCT_CATEGORY ( 'detail', '', ( #294 ) ) ;
#33 = VERTEX_POINT ( 'NONE', #239 ) ;
#34 = FACE_OUTER_BOUND ( 'NONE', #238, .T. ) ;
#35 = ORIENTED_EDGE ( 'NONE', *, *, #106, .T. ) ;
#36 = CIRCLE ( 'NONE', #108, 5.000000000000000000 ) ;
#37 = DIRECTION ( 'NONE',  ( -0.000000000000000000, 0.000000000000000000, 1.000000000000000000 ) ) ;
#38 = ADVANCED_FACE ( 'NONE', ( #143 ), #90, .T. ) ;
#39 = EDGE_LOOP ( 'NONE', ( #220, #114 ) ) ;
#40 = ORIENTED_EDGE ( 'NONE', *, *, #304, .F. ) ;
#41 = LOCAL_TIME ( 17, 10, 59.00000000000000000, #87 ) ;
#42 = CARTESIAN_POINT ( 'NONE',  ( -3.000000000000000000, 0.000000000000000000, 0.000000000000000000 ) ) ;
#43 = CARTESIAN_POINT ( 'NONE',  ( -1.614212418857619014, 0.000000000000000000, 0.000000000000000000 ) ) ;
#44 = EDGE_CURVE ( 'NONE', #217, #244, #221, .T. ) ;
#45 = LINE ( 'NONE', #174, #118 ) ;
#46 = DIRECTION ( 'NONE',  ( -1.000000000000000000, -0.000000000000000000, -0.000000000000000000 ) ) ;
#47 = DIRECTION ( 'NONE',  ( -0.000000000000000000, 0.000000000000000000, 1.000000000000000000 ) ) ;
#48 = DATE_AND_TIME ( #235, #209 ) ;
#49 = APPROVAL_ROLE ( '' ) ;
#50 = APPROVAL_PERSON_ORGANIZATION ( #161, #178, #49 ) ;
#51 = PERSON_AND_ORGANIZATION_ROLE ( 'creator' ) ;
#52 = PERSON_AND_ORGANIZATION ( #195, #312 ) ;
#53 = PRODUCT_DEFINITION_FORMATION_WITH_SPECIFIED_SOURCE ( 'ANY', '', #294, .NOT_KNOWN. ) ;
#54 = VERTEX_POINT ( 'NONE', #212 ) ;
#55 = VERTEX_POINT ( 'NONE', #31 ) ;
#56 = CARTESIAN_POINT ( 'NONE',  ( 3.000000000000000000, 0.000000000000000000, 0.000000000000000000 ) ) ;
#57 = ORIENTED_EDGE ( 'NONE', *, *, #240, .T. ) ;
#58 = AXIS2_PLACEMENT_3D ( 'NONE', #61, #170, #37 ) ;
#59 = PLANE ( 'NONE',  #14 ) ;
#60 = ORIENTED_EDGE ( 'NONE', *, *, #19, .T. ) ;
#61 = CARTESIAN_POINT ( 'NONE',  ( 3.000000000000000000, 12.69999999999999929, 0.000000000000000000 ) ) ;
#62 = ORIENTED_EDGE ( 'NONE', *, *, #205, .F. ) ;
#63 = FACE_BOUND ( 'NONE', #270, .T. ) ;
#64 = ORIENTED_EDGE ( 'NONE', *, *, #107, .F. ) ;
#65 = APPROVAL ( #290, 'UNSPECIFIED' ) ;
#66 = CARTESIAN_POINT ( 'NONE',  ( -1.250000000000000222, 0.000000000000000000, 0.000000000000000000 ) ) ;
#67 = CC_DESIGN_APPROVAL ( #309, ( #69 ) ) ;
#68 = CARTESIAN_POINT ( 'NONE',  ( -1.614212418857619014, 0.000000000000000000, 0.000000000000000000 ) ) ;
#69 = SECURITY_CLASSIFICATION ( '', '', #292 ) ;
#70 = CARTESIAN_POINT ( 'NONE',  ( 1.250000000000000444, 0.000000000000000000, 5.000000000000000000 ) ) ;
#71 = ADVANCED_BREP_SHAPE_REPRESENTATION ( 'Q-OZHWP-R2-10-1550-M', ( #201, #287 ), #9 ) ;
#72 = AXIS2_PLACEMENT_3D ( 'NONE', #125, #196, #124 ) ;
#73 = DIRECTION ( 'NONE',  ( 0.000000000000000000, 0.000000000000000000, -1.000000000000000000 ) ) ;
#74 = VECTOR ( 'NONE', #98, 1000.000000000000000 ) ;
#75 = EDGE_CURVE ( 'NONE', #54, #91, #10, .T. ) ;
#76 = CARTESIAN_POINT ( 'NONE',  ( -1.614212418857619014, 0.000000000000000000, 5.000000000000000888 ) ) ;
#77 = AXIS2_PLACEMENT_3D ( 'NONE', #119, #15, #296 ) ;
#78 = ADVANCED_FACE ( 'NONE', ( #299, #7 ), #59, .F. ) ;
#79 = CARTESIAN_POINT ( 'NONE',  ( -1.250000000000000222, 5.000000000000000000, 0.000000000000000000 ) ) ;
#80 = CIRCLE ( 'NONE', #72, 5.000000000000000000 ) ;
#81 = PERSON_AND_ORGANIZATION ( #195, #312 ) ;
#82 = AXIS2_PLACEMENT_3D ( 'NONE', #146, #314, #310 ) ;
#83 = APPROVAL_ROLE ( '' ) ;
#84 = COORDINATED_UNIVERSAL_TIME_OFFSET ( 8, 0, .AHEAD. ) ;
#85 = AXIS2_PLACEMENT_3D ( 'NONE', #202, #198, #73 ) ;
#86 = MECHANICAL_CONTEXT ( 'NONE', #210, 'mechanical' ) ;
#87 = COORDINATED_UNIVERSAL_TIME_OFFSET ( 8, 0, .AHEAD. ) ;
#88 = ORIENTED_EDGE ( 'NONE', *, *, #283, .T. ) ;
#89 = DATE_AND_TIME ( #157, #253 ) ;
#90 = CYLINDRICAL_SURFACE ( 'NONE', #26, 12.69999999999999929 ) ;
#91 = VERTEX_POINT ( 'NONE', #303 ) ;
#92 = ORIENTED_EDGE ( 'NONE', *, *, #44, .F. ) ;
#93 = AXIS2_PLACEMENT_3D ( 'NONE', #43, #152, #251 ) ;
#94 = LINE ( 'NONE', #214, #264 ) ;
#95 = ORIENTED_EDGE ( 'NONE', *, *, #75, .T. ) ;
#96 = CYLINDRICAL_SURFACE ( 'NONE', #285, 5.000000000000000888 ) ;
#97 = VERTEX_POINT ( 'NONE', #185 ) ;
#98 = DIRECTION ( 'NONE',  ( -1.000000000000000000, -0.000000000000000000, -0.000000000000000000 ) ) ;
#99 = FACE_OUTER_BOUND ( 'NONE', #12, .T. ) ;
#100 = CYLINDRICAL_SURFACE ( 'NONE', #162, 5.000000000000000888 ) ;
#101 = ADVANCED_FACE ( 'NONE', ( #34 ), #122, .F. ) ;
#102 = DIRECTION ( 'NONE',  ( -1.000000000000000000, -0.000000000000000000, -0.000000000000000000 ) ) ;
#103 = DIRECTION ( 'NONE',  ( 0.000000000000000000, 0.000000000000000000, -1.000000000000000000 ) ) ;
#104 = CC_DESIGN_DATE_AND_TIME_ASSIGNMENT ( #109, #111, ( #69 ) ) ;
#105 = CARTESIAN_POINT ( 'NONE',  ( 3.000000000000000000, 6.123233995736768255E-16, -5.000000000000001776 ) ) ;
#106 = EDGE_CURVE ( 'NONE', #244, #217, #255, .T. ) ;
#107 = EDGE_CURVE ( 'NONE', #97, #215, #94, .T. ) ;
#108 = AXIS2_PLACEMENT_3D ( 'NONE', #281, #259, #21 ) ;
#109 = DATE_AND_TIME ( #229, #265 ) ;
#110 = DATE_AND_TIME ( #319, #282 ) ;
#111 = DATE_TIME_ROLE ( 'classification_date' ) ;
#112 = CC_DESIGN_PERSON_AND_ORGANIZATION_ASSIGNMENT ( #236, #207, ( #294 ) ) ;
#113 = ORIENTED_EDGE ( 'NONE', *, *, #262, .T. ) ;
#114 = ORIENTED_EDGE ( 'NONE', *, *, #289, .F. ) ;
#115 = DIRECTION ( 'NONE',  ( 0.000000000000000000, 0.000000000000000000, 1.000000000000000000 ) ) ;
#116 = DIRECTION ( 'NONE',  ( 1.000000000000000000, 0.000000000000000000, 0.000000000000000000 ) ) ;
#117 = ADVANCED_FACE ( 'NONE', ( #167 ), #96, .F. ) ;
#118 = VECTOR ( 'NONE', #279, 1000.000000000000000 ) ;
#119 = CARTESIAN_POINT ( 'NONE',  ( 3.000000000000000000, 0.000000000000000000, 0.000000000000000000 ) ) ;
#120 = ORIENTED_EDGE ( 'NONE', *, *, #44, .T. ) ;
#121 = APPROVAL_DATE_TIME ( #89, #309 ) ;
#122 = CYLINDRICAL_SURFACE ( 'NONE', #226, 5.000000000000000888 ) ;
#123 = AXIS2_PLACEMENT_3D ( 'NONE', #68, #278, #280 ) ;
#124 = DIRECTION ( 'NONE',  ( 0.000000000000000000, 0.000000000000000000, 1.000000000000000000 ) ) ;
#125 = CARTESIAN_POINT ( 'NONE',  ( -3.000000000000000000, 0.000000000000000000, 0.000000000000000000 ) ) ;
#126 = CARTESIAN_POINT ( 'NONE',  ( 3.000000000000000000, 1.555301434917138433E-15, -12.69999999999999929 ) ) ;
#127 = CYLINDRICAL_SURFACE ( 'NONE', #123, 12.69999999999999929 ) ;
#128 = PRODUCT_DEFINITION ( 'UNKNOWN', '', #53, #228 ) ;
#129 = APPLICATION_PROTOCOL_DEFINITION ( 'international standard', 'config_control_design', 1994, #132 ) ;
#130 = CC_DESIGN_DATE_AND_TIME_ASSIGNMENT ( #261, #286, ( #128 ) ) ;
#131 = APPROVAL_STATUS ( 'not_yet_approved' ) ;
#132 = APPLICATION_CONTEXT ( 'configuration controlled 3d designs of mechanical parts and assemblies' ) ;
#133 = CIRCLE ( 'NONE', #25, 5.000000000000000000 ) ;
#134 = DIRECTION ( 'NONE',  ( 1.000000000000000000, 0.000000000000000000, 0.000000000000000000 ) ) ;
#135 = EDGE_LOOP ( 'NONE', ( #325, #92 ) ) ;
#136 = DIRECTION ( 'NONE',  ( -1.000000000000000000, -0.000000000000000000, -0.000000000000000000 ) ) ;
#137 = ORIENTED_EDGE ( 'NONE', *, *, #234, .F. ) ;
#138 = CLOSED_SHELL ( 'NONE', ( #38, #230, #117, #333, #101, #273, #78, #208, #150, #315 ) ) ;
#139 = CARTESIAN_POINT ( 'NONE',  ( -1.250000000000000222, 0.000000000000000000, 5.000000000000000888 ) ) ;
#140 = EDGE_LOOP ( 'NONE', ( #274, #120, #246, #184 ) ) ;
#141 = DIRECTION ( 'NONE',  ( 0.000000000000000000, 0.000000000000000000, -1.000000000000000000 ) ) ;
#142 = ORIENTED_EDGE ( 'NONE', *, *, #283, .F. ) ;
#143 = FACE_OUTER_BOUND ( 'NONE', #213, .T. ) ;
#144 = ORIENTED_EDGE ( 'NONE', *, *, #182, .T. ) ;
#145 = AXIS2_PLACEMENT_3D ( 'NONE', #79, #334, #103 ) ;
#146 = CARTESIAN_POINT ( 'NONE',  ( -3.000000000000000000, 0.000000000000000000, 0.000000000000000000 ) ) ;
#147 = AXIS2_PLACEMENT_3D ( 'NONE', #148, #20, #225 ) ;
#148 = CARTESIAN_POINT ( 'NONE',  ( 3.000000000000000000, 0.000000000000000000, 0.000000000000000000 ) ) ;
#149 = FACE_OUTER_BOUND ( 'NONE', #39, .T. ) ;
#150 = ADVANCED_FACE ( 'NONE', ( #271, #63 ), #275, .F. ) ;
#151 = DIRECTION ( 'NONE',  ( 0.000000000000000000, 0.000000000000000000, 1.000000000000000000 ) ) ;
#152 = DIRECTION ( 'NONE',  ( -1.000000000000000000, -0.000000000000000000, -0.000000000000000000 ) ) ;
#153 = AXIS2_PLACEMENT_3D ( 'NONE', #56, #272, #115 ) ;
#154 = UNCERTAINTY_MEASURE_WITH_UNIT (LENGTH_MEASURE( 1.000000000000000082E-05 ), #181, 'distance_accuracy_value', 'NONE');
#155 = PERSON_AND_ORGANIZATION_ROLE ( 'design_supplier' ) ;
#156 = APPROVAL_DATE_TIME ( #48, #178 ) ;
#157 = CALENDAR_DATE ( 2020, 22, 12 ) ;
#158 = CC_DESIGN_PERSON_AND_ORGANIZATION_ASSIGNMENT ( #81, #260, ( #69 ) ) ;
#159 =( NAMED_UNIT ( * ) PLANE_ANGLE_UNIT ( ) SI_UNIT ( $, .RADIAN. ) );
#160 = CC_DESIGN_APPROVAL ( #178, ( #128 ) ) ;
#161 = PERSON_AND_ORGANIZATION ( #195, #312 ) ;
#162 = AXIS2_PLACEMENT_3D ( 'NONE', #200, #46, #151 ) ;
#163 = EDGE_CURVE ( 'NONE', #244, #33, #13, .T. ) ;
#164 = ORIENTED_EDGE ( 'NONE', *, *, #205, .T. ) ;
#165 = DIRECTION ( 'NONE',  ( 0.000000000000000000, 0.000000000000000000, 1.000000000000000000 ) ) ;
#166 = VERTEX_POINT ( 'NONE', #139 ) ;
#167 = FACE_OUTER_BOUND ( 'NONE', #269, .T. ) ;
#168 = ORIENTED_EDGE ( 'NONE', *, *, #19, .F. ) ;
#169 = CIRCLE ( 'NONE', #326, 5.000000000000001776 ) ;
#170 = DIRECTION ( 'NONE',  ( -1.000000000000000000, 0.000000000000000000, -0.000000000000000000 ) ) ;
#171 = DIRECTION ( 'NONE',  ( -1.000000000000000000, -0.000000000000000000, -0.000000000000000000 ) ) ;
#172 = DIRECTION ( 'NONE',  ( 0.000000000000000000, 0.000000000000000000, 1.000000000000000000 ) ) ;
#173 = DIRECTION ( 'NONE',  ( -1.000000000000000000, -0.000000000000000000, -0.000000000000000000 ) ) ;
#174 = CARTESIAN_POINT ( 'NONE',  ( -1.614212418857619014, 6.123233995736767268E-16, -5.000000000000000888 ) ) ;
#175 = FACE_OUTER_BOUND ( 'NONE', #324, .T. ) ;
#176 = CARTESIAN_POINT ( 'NONE',  ( -3.000000000000000000, 1.555301434917138433E-15, -12.69999999999999929 ) ) ;
#177 = CARTESIAN_POINT ( 'NONE',  ( 1.250000000000000222, 5.000000000000000000, 0.000000000000000000 ) ) ;
#178 = APPROVAL ( #320, 'UNSPECIFIED' ) ;
#179 = APPLICATION_PROTOCOL_DEFINITION ( 'international standard', 'config_control_design', 1994, #210 ) ;
#180 = AXIS2_PLACEMENT_3D ( 'NONE', #197, #102, #311 ) ;
#181 =( LENGTH_UNIT ( ) NAMED_UNIT ( * ) SI_UNIT ( .MILLI., .METRE. ) );
#182 = EDGE_CURVE ( 'NONE', #241, #33, #300, .T. ) ;
#183 = ORIENTED_EDGE ( 'NONE', *, *, #262, .F. ) ;
#184 = ORIENTED_EDGE ( 'NONE', *, *, #182, .F. ) ;
#185 = CARTESIAN_POINT ( 'NONE',  ( 3.000000000000000000, 0.000000000000000000, 5.000000000000001776 ) ) ;
#186 = ORIENTED_EDGE ( 'NONE', *, *, #75, .F. ) ;
#187 = CARTESIAN_POINT ( 'NONE',  ( -1.614212418857619014, 0.000000000000000000, 0.000000000000000000 ) ) ;
#188 = VECTOR ( 'NONE', #223, 1000.000000000000000 ) ;
#189 = CC_DESIGN_PERSON_AND_ORGANIZATION_ASSIGNMENT ( #6, #155, ( #53 ) ) ;
#190 = ORIENTED_EDGE ( 'NONE', *, *, #297, .T. ) ;
#191 = CC_DESIGN_APPROVAL ( #65, ( #53 ) ) ;
#192 = CARTESIAN_POINT ( 'NONE',  ( 3.000000000000000000, 0.000000000000000000, 0.000000000000000000 ) ) ;
#193 = ORIENTED_EDGE ( 'NONE', *, *, #304, .T. ) ;
#194 = CARTESIAN_POINT ( 'NONE',  ( -1.614212418857619014, 6.123233995736767268E-16, -5.000000000000000888 ) ) ;
#195 = PERSON ( 'UNSPECIFIED', 'UNSPECIFIED', 'UNSPECIFIED', ('UNSPECIFIED'), ('UNSPECIFIED'), ('UNSPECIFIED') ) ;
#196 = DIRECTION ( 'NONE',  ( -1.000000000000000000, -0.000000000000000000, -0.000000000000000000 ) ) ;
#197 = CARTESIAN_POINT ( 'NONE',  ( 1.250000000000000444, 0.000000000000000000, 0.000000000000000000 ) ) ;
#198 = DIRECTION ( 'NONE',  ( 1.000000000000000000, 0.000000000000000000, 0.000000000000000000 ) ) ;
#199 = VECTOR ( 'NONE', #329, 1000.000000000000000 ) ;
#200 = CARTESIAN_POINT ( 'NONE',  ( -1.614212418857619014, 0.000000000000000000, 0.000000000000000000 ) ) ;
#201 = MANIFOLD_SOLID_BREP ( 'Ðý×', #138 ) ;
#202 = CARTESIAN_POINT ( 'NONE',  ( -1.250000000000000222, 0.000000000000000000, 0.000000000000000000 ) ) ;
#203 = CIRCLE ( 'NONE', #331, 5.000000000000000888 ) ;
#204 = PERSON_AND_ORGANIZATION_ROLE ( 'creator' ) ;
#205 = EDGE_CURVE ( 'NONE', #33, #241, #22, .T. ) ;
#206 = PERSON_AND_ORGANIZATION ( #195, #312 ) ;
#207 = PERSON_AND_ORGANIZATION_ROLE ( 'design_owner' ) ;
#208 = ADVANCED_FACE ( 'NONE', ( #330 ), #127, .T. ) ;
#209 = LOCAL_TIME ( 17, 10, 59.00000000000000000, #263 ) ;
#210 = APPLICATION_CONTEXT ( 'configuration controlled 3d designs of mechanical parts and assemblies' ) ;
#211 = ORIENTED_EDGE ( 'NONE', *, *, #233, .T. ) ;
#212 = CARTESIAN_POINT ( 'NONE',  ( -1.250000000000000222, 6.123233995736767268E-16, -5.000000000000000888 ) ) ;
#213 = EDGE_LOOP ( 'NONE', ( #35, #211, #62, #293 ) ) ;
#214 = CARTESIAN_POINT ( 'NONE',  ( -1.614212418857619014, 0.000000000000000000, 5.000000000000000888 ) ) ;
#215 = VERTEX_POINT ( 'NONE', #70 ) ;
#216 = DIRECTION ( 'NONE',  ( -1.000000000000000000, -0.000000000000000000, -0.000000000000000000 ) ) ;
#217 = VERTEX_POINT ( 'NONE', #126 ) ;
#218 = CARTESIAN_POINT ( 'NONE',  ( -1.614212418857619014, 0.000000000000000000, 0.000000000000000000 ) ) ;
#219 = EDGE_CURVE ( 'NONE', #97, #291, #252, .T. ) ;
#220 = ORIENTED_EDGE ( 'NONE', *, *, #297, .F. ) ;
#221 = CIRCLE ( 'NONE', #77, 12.69999999999999929 ) ;
#222 = DIRECTION ( 'NONE',  ( 0.000000000000000000, 0.000000000000000000, -1.000000000000000000 ) ) ;
#223 = DIRECTION ( 'NONE',  ( -1.000000000000000000, -0.000000000000000000, -0.000000000000000000 ) ) ;
#224 = FACE_OUTER_BOUND ( 'NONE', #237, .T. ) ;
#225 = DIRECTION ( 'NONE',  ( 0.000000000000000000, 0.000000000000000000, 1.000000000000000000 ) ) ;
#226 = AXIS2_PLACEMENT_3D ( 'NONE', #218, #306, #165 ) ;
#227 = LINE ( 'NONE', #254, #188 ) ;
#228 = DESIGN_CONTEXT ( 'detailed design', #132, 'design' ) ;
#229 = CALENDAR_DATE ( 2020, 22, 12 ) ;
#230 = ADVANCED_FACE ( 'NONE', ( #224 ), #332, .F. ) ;
#231 = CARTESIAN_POINT ( 'NONE',  ( 0.000000000000000000, 0.000000000000000000, 0.000000000000000000 ) ) ;
#232 = AXIS2_PLACEMENT_3D ( 'NONE', #42, #308, #172 ) ;
#233 = EDGE_CURVE ( 'NONE', #217, #241, #227, .T. ) ;
#234 = EDGE_CURVE ( 'NONE', #267, #91, #133, .T. ) ;
#235 = CALENDAR_DATE ( 2020, 22, 12 ) ;
#236 = PERSON_AND_ORGANIZATION ( #195, #312 ) ;
#237 = EDGE_LOOP ( 'NONE', ( #193, #95, #88, #183 ) ) ;
#238 = EDGE_LOOP ( 'NONE', ( #298, #248, #268, #190 ) ) ;
#239 = CARTESIAN_POINT ( 'NONE',  ( -3.000000000000000000, 0.000000000000000000, 12.69999999999999929 ) ) ;
#240 = EDGE_CURVE ( 'NONE', #291, #55, #45, .T. ) ;
#241 = VERTEX_POINT ( 'NONE', #176 ) ;
#242 = DIRECTION ( 'NONE',  ( -1.000000000000000000, -0.000000000000000000, -0.000000000000000000 ) ) ;
#243 = APPROVAL_PERSON_ORGANIZATION ( #52, #65, #288 ) ;
#244 = VERTEX_POINT ( 'NONE', #335 ) ;
#245 = DIRECTION ( 'NONE',  ( -1.000000000000000000, -0.000000000000000000, -0.000000000000000000 ) ) ;
#246 = ORIENTED_EDGE ( 'NONE', *, *, #163, .T. ) ;
#247 = DIRECTION ( 'NONE',  ( 1.000000000000000000, 0.000000000000000000, 0.000000000000000000 ) ) ;
#248 = ORIENTED_EDGE ( 'NONE', *, *, #219, .F. ) ;
#249 = PRODUCT_DEFINITION_SHAPE ( 'NONE', 'NONE',  #128 ) ;
#250 = CIRCLE ( 'NONE', #180, 5.000000000000000000 ) ;
#251 = DIRECTION ( 'NONE',  ( 0.000000000000000000, 0.000000000000000000, 1.000000000000000000 ) ) ;
#252 = CIRCLE ( 'NONE', #147, 5.000000000000001776 ) ;
#253 = LOCAL_TIME ( 17, 10, 59.00000000000000000, #84 ) ;
#254 = CARTESIAN_POINT ( 'NONE',  ( -1.614212418857619014, 1.555301434917138433E-15, -12.69999999999999929 ) ) ;
#255 = CIRCLE ( 'NONE', #153, 12.69999999999999929 ) ;
#256 = CC_DESIGN_PERSON_AND_ORGANIZATION_ASSIGNMENT ( #24, #51, ( #53 ) ) ;
#257 = PLANE ( 'NONE',  #1 ) ;
#258 = LINE ( 'NONE', #76, #199 ) ;
#259 = DIRECTION ( 'NONE',  ( -1.000000000000000000, -0.000000000000000000, -0.000000000000000000 ) ) ;
#260 = PERSON_AND_ORGANIZATION_ROLE ( 'classification_officer' ) ;
#261 = DATE_AND_TIME ( #5, #41 ) ;
#262 = EDGE_CURVE ( 'NONE', #166, #267, #258, .T. ) ;
#263 = COORDINATED_UNIVERSAL_TIME_OFFSET ( 8, 0, .AHEAD. ) ;
#264 = VECTOR ( 'NONE', #216, 1000.000000000000000 ) ;
#265 = LOCAL_TIME ( 17, 10, 59.00000000000000000, #23 ) ;
#266 = VECTOR ( 'NONE', #136, 1000.000000000000000 ) ;
#267 = VERTEX_POINT ( 'NONE', #17 ) ;
#268 = ORIENTED_EDGE ( 'NONE', *, *, #107, .T. ) ;
#269 = EDGE_LOOP ( 'NONE', ( #168, #57, #327, #64 ) ) ;
#270 = EDGE_LOOP ( 'NONE', ( #305, #60 ) ) ;
#271 = FACE_OUTER_BOUND ( 'NONE', #135, .T. ) ;
#272 = DIRECTION ( 'NONE',  ( -1.000000000000000000, -0.000000000000000000, -0.000000000000000000 ) ) ;
#273 = ADVANCED_FACE ( 'NONE', ( #99 ), #100, .F. ) ;
#274 = ORIENTED_EDGE ( 'NONE', *, *, #233, .F. ) ;
#275 = PLANE ( 'NONE',  #58 ) ;
#276 = APPROVAL_PERSON_ORGANIZATION ( #206, #309, #83 ) ;
#277 = CARTESIAN_POINT ( 'NONE',  ( -1.614212418857619014, 0.000000000000000000, 0.000000000000000000 ) ) ;
#278 = DIRECTION ( 'NONE',  ( -1.000000000000000000, -0.000000000000000000, -0.000000000000000000 ) ) ;
#279 = DIRECTION ( 'NONE',  ( -1.000000000000000000, -0.000000000000000000, -0.000000000000000000 ) ) ;
#280 = DIRECTION ( 'NONE',  ( 0.000000000000000000, 0.000000000000000000, 1.000000000000000000 ) ) ;
#281 = CARTESIAN_POINT ( 'NONE',  ( 1.250000000000000444, 0.000000000000000000, 0.000000000000000000 ) ) ;
#282 = LOCAL_TIME ( 17, 10, 59.00000000000000000, #3 ) ;
#283 = EDGE_CURVE ( 'NONE', #91, #267, #80, .T. ) ;
#284 = DIRECTION ( 'NONE',  ( -1.000000000000000000, 0.000000000000000000, -0.000000000000000000 ) ) ;
#285 = AXIS2_PLACEMENT_3D ( 'NONE', #187, #171, #323 ) ;
#286 = DATE_TIME_ROLE ( 'creation_date' ) ;
#287 = AXIS2_PLACEMENT_3D ( 'NONE', #231, #318, #134 ) ;
#288 = APPROVAL_ROLE ( '' ) ;
#289 = EDGE_CURVE ( 'NONE', #55, #215, #250, .T. ) ;
#290 = APPROVAL_STATUS ( 'not_yet_approved' ) ;
#291 = VERTEX_POINT ( 'NONE', #105 ) ;
#292 = SECURITY_CLASSIFICATION_LEVEL ( 'unclassified' ) ;
#293 = ORIENTED_EDGE ( 'NONE', *, *, #163, .F. ) ;
#294 = PRODUCT ( 'Q-OZHWP-R2-10-1550-M', 'Q-OZHWP-R2-10-1550-M', '', ( #86 ) ) ;
#295 = CIRCLE ( 'NONE', #85, 5.000000000000000888 ) ;
#296 = DIRECTION ( 'NONE',  ( 0.000000000000000000, 0.000000000000000000, 1.000000000000000000 ) ) ;
#297 = EDGE_CURVE ( 'NONE', #215, #55, #36, .T. ) ;
#298 = ORIENTED_EDGE ( 'NONE', *, *, #240, .F. ) ;
#299 = FACE_BOUND ( 'NONE', #30, .T. ) ;
#300 = CIRCLE ( 'NONE', #232, 12.69999999999999929 ) ;
#301 = ORIENTED_EDGE ( 'NONE', *, *, #16, .T. ) ;
#302 = SHAPE_DEFINITION_REPRESENTATION ( #249, #71 ) ;
#303 = CARTESIAN_POINT ( 'NONE',  ( -3.000000000000000000, 6.123233995736766282E-16, -5.000000000000000000 ) ) ;
#304 = EDGE_CURVE ( 'NONE', #166, #54, #295, .T. ) ;
#305 = ORIENTED_EDGE ( 'NONE', *, *, #219, .T. ) ;
#306 = DIRECTION ( 'NONE',  ( -1.000000000000000000, -0.000000000000000000, -0.000000000000000000 ) ) ;
#307 = ORIENTED_EDGE ( 'NONE', *, *, #234, .T. ) ;
#308 = DIRECTION ( 'NONE',  ( -1.000000000000000000, -0.000000000000000000, -0.000000000000000000 ) ) ;
#309 = APPROVAL ( #131, 'UNSPECIFIED' ) ;
#310 = DIRECTION ( 'NONE',  ( 0.000000000000000000, 0.000000000000000000, 1.000000000000000000 ) ) ;
#311 = DIRECTION ( 'NONE',  ( 0.000000000000000000, 0.000000000000000000, 1.000000000000000000 ) ) ;
#312 = ORGANIZATION ( 'UNSPECIFIED', 'UNSPECIFIED', '' ) ;
#313 = DIRECTION ( 'NONE',  ( 0.000000000000000000, 0.000000000000000000, 1.000000000000000000 ) ) ;
#314 = DIRECTION ( 'NONE',  ( -1.000000000000000000, -0.000000000000000000, -0.000000000000000000 ) ) ;
#315 = ADVANCED_FACE ( 'NONE', ( #175 ), #316, .F. ) ;
#316 = PLANE ( 'NONE',  #145 ) ;
#317 = APPROVAL_DATE_TIME ( #110, #65 ) ;
#318 = DIRECTION ( 'NONE',  ( 0.000000000000000000, 0.000000000000000000, 1.000000000000000000 ) ) ;
#319 = CALENDAR_DATE ( 2020, 22, 12 ) ;
#320 = APPROVAL_STATUS ( 'not_yet_approved' ) ;
#321 = CARTESIAN_POINT ( 'NONE',  ( -3.000000000000000000, 5.000000000000000000, 0.000000000000000000 ) ) ;
#322 = DIRECTION ( 'NONE',  ( 0.000000000000000000, 0.000000000000000000, 1.000000000000000000 ) ) ;
#323 = DIRECTION ( 'NONE',  ( 0.000000000000000000, 0.000000000000000000, 1.000000000000000000 ) ) ;
#324 = EDGE_LOOP ( 'NONE', ( #40, #8 ) ) ;
#325 = ORIENTED_EDGE ( 'NONE', *, *, #106, .F. ) ;
#326 = AXIS2_PLACEMENT_3D ( 'NONE', #192, #242, #322 ) ;
#327 = ORIENTED_EDGE ( 'NONE', *, *, #289, .T. ) ;
#328 = CARTESIAN_POINT ( 'NONE',  ( -1.614212418857619014, 0.000000000000000000, 12.69999999999999929 ) ) ;
#329 = DIRECTION ( 'NONE',  ( -1.000000000000000000, -0.000000000000000000, -0.000000000000000000 ) ) ;
#330 = FACE_OUTER_BOUND ( 'NONE', #140, .T. ) ;
#331 = AXIS2_PLACEMENT_3D ( 'NONE', #66, #247, #222 ) ;
#332 = CYLINDRICAL_SURFACE ( 'NONE', #93, 5.000000000000000888 ) ;
#333 = ADVANCED_FACE ( 'NONE', ( #149 ), #257, .F. ) ;
#334 = DIRECTION ( 'NONE',  ( 1.000000000000000000, 0.000000000000000000, 0.000000000000000000 ) ) ;
#335 = CARTESIAN_POINT ( 'NONE',  ( 3.000000000000000000, 0.000000000000000000, 12.69999999999999929 ) ) ;
ENDSEC;
END-ISO-10303-21;
